> MIDI
> Chords

> Videos
document.write('(function () {try{VCM.media.render({sid:64322,media_id:1,media_type:5,version:"1.2"});} catch(e){document.write(\'\');}}());');









	Guitar tabs home
		   
   			Submit tabs
		
    
    Community & forum
		
	        Community home
			Guitar forum
			Member videos
			Member photos
		    
    
	Video lessons
	Text lessons
	
	 
	
	

 


qm_create(0,false,0,250,false,false,false,false,false);




Guitar Tabs Explorer  » L » Led Zeppelin tabs » Going to california mandolin (Guitar tabs)

  
    
    
(function(d, s, id) {
  var js, fjs = d.getElementsByTagName(s)[0];
  if (d.getElementById(id)) {return;}
  js = d.createElement(s); js.id = id;
  js.src = "//connect.facebook.net/en_US/all.js#xfbml=1";
  fjs.parentNode.insertBefore(js, fjs);
}(document, 'script', 'facebook-jssdk'));

  


Led Zeppelin - “Going to california mandolin“ Guitar tabs


Led Zeppelin Going to california mandolin guitar tabs. Related pages are Poor tom (Ver2) tabs, 
 Over the hills and far away live intro tabs, 
 Dazed and confused chords, 
 Since ive been loving you chords, 
 Heartbreaker (Ver2) bass tabs. See all Led Zeppelin tabs. Submit corrected and missing guitar tabs here. 




  
    Check it out...Join our new guitar forum & community. Click here!
  
  
    [Guitar forum|Member images|Member videos]
  




Going To California


Mandolin
Track 4 is the mandolin part arranged for guitar



     W                   W
E||-------------------|-------------------|
A||-------------------|-------------------|
D||-------------------|-------------------|
G||-------------------|-------------------|


  W                   W
-------------------|-------------------|
-------------------|-------------------|
-------------------|-------------------|
-------------------|-------------------|


  W                   W
-------------------|-------------------|
-------------------|-------------------|
-------------------|-------------------|
-------------------|-------------------|


  Q    E  E  E  E  E  E
-------------------------|
----------0-----0-----0--|
-------4-----5-----4-----|
-------------------------|


  E  E  E  E  E  E  E  E
--------------------------|
-----0-----0-----0--------|
--2-----0-----2-----4--4--|
--------------------------|


  Q.     H        E     E  Q    H        E
---------------------|----------------------|
---------------------|----------------------|
--5------4--------0--|--L--5----0--------L--|
---------------------|----------------------|


  Q.     H        E
---------------------|
--2------0--------0--|
--0---------------4--|
---------------------|


  E  Q    Q    Q    E
-----------------------|
--L--0----0------------|
--L--5----4----2----0--|
-----------------------|


  Q    E  Q    Q    E
-----------------------|
----------0----0----0--|
--4----0--2------------|
-----------------------|


  E  E  E  E  E  E  Q
-------------------------|
-----0-----0-------------|
--0-----0-----------0----|
--------------2--4-------|


  Q    E  Q    Q    E
-----------------------|
----------0----0----0--|
--4----4--2----2-------|
-----------------------|


  E  E  E  E  E  E  Q
-------------------------|
-----0-----0-------------|
--2-----0-----------0----|
--------------2--4-------|


  Q.     H        E     E  Q    H        E
---------------------|----------------------|
---------------------|----------------------|
--5------4--------0--|--L--5----0--------L--|
---------------------|----------------------|


  Q.     H        E
---------------------|
--2------0--------0--|
--0---------------4--|
---------------------|


  E  Q    Q    Q    E
-----------------------|
--L--0----0------------|
--L--5----4----2----0--|
-----------------------|


  Q    E  Q    Q    E
-----------------------|
----------0----0----0--|
--4----0--2------------|
-----------------------|


  E  E  E  E  E  E  Q
-------------------------|
-----0-----0-------------|
--0-----0-----------0----|
--------------2--4-------|


  Q    E  Q    Q    E
-----------------------|
----------0----0----0--|
--4----4--2----2-------|
-----------------------|


  E  E  E  E  E  E  Q
-------------------------|
-----0-----0-------------|
--2-----0-----------0----|
--------------2--4-------|


  Q.     H        E     E  Q    H        E
---------------------|----------------------|
---------------------|----------------------|
--5------4--------0--|--L--5----0--------L--|
---------------------|----------------------|


  Q.     H        E
---------------------|
--2------0--------0--|
--0---------------4--|
---------------------|


  E  Q    Q    Q    E
-----------------------|
--L--0----0------------|
--L--5----4----2----0--|
-----------------------|


  Q    E  Q    Q    E
-----------------------|
----------0----0----0--|
--4----0--2------------|
-----------------------|


  E  E  E  E  E  E  Q
-------------------------|
-----0-----0-------------|
--0-----0-----------0----|
--------------2--4-------|


  Q    E  Q    Q    E
-----------------------|
----------0----0----0--|
--4----4--2----2-------|
-----------------------|


  E  E  E  E  E  E  Q
-------------------------|
-----0-----0-------------|
--2-----0-----------0----|
--------------2--4-------|


  Q    E  E  E  E  Q
------------------------|
------------------------|
-------3--2--0--2--0----|
------------------------|


  E  E  E  E  E  T E.  T E
----------------------------|
----------------------------|
--3--2--0-----0----0---L-0--|
-----------5-----5----------|


  H        E  E  E  E
-----------------------|
-----------------------|
--L--------L-----------|
--------------2--4--4--|


  H        E  E  Q
----------------------|
----------------------|
----------------------|
--2--------L--4--2----|


  Q    E  E  E  E  Q
------------------------|
------------------------|
-------3--2--0-----0----|
----------------5-------|


  E  E  E  E  E  E  E  E
--------------------------|
--------------------------|
--3--2--0--5--3--2--0-----|
-----------------------5--|


  H        E  E  T E.  T
-------------------------|
--------------0----------|
--0--------L-------------|
-----------------2-4---L-|


  E  E  E  Q    Q    E
------------------------|
------------------------|
-----------0----0----0--|
--2--2--4---------------|


  E  E  E  Q    E  E  E
-----------0----------0--|
-----0--5-------0--5-----|
--L----------------------|
-------------------------|


  E  E  E  Q    E  E  E
--L--------0----------0--|
-----0--5-------0--5-----|
-------------------------|
-------------------------|


  Q.     H        E     E  Q    H        E
---------------------|----------------------|
---------------------|----------------------|
--5------4--------0--|--L--5----0--------L--|
---------------------|----------------------|


  Q.     H        E
---------------------|
--2------0--------0--|
--0---------------4--|
---------------------|


  E  Q    Q    Q    E
-----------------------|
--L--0----0------------|
--L--5----4----2----0--|
-----------------------|


  Q    E  Q    Q    E
-----------------------|
----------0----0----0--|
--4----0--2------------|
-----------------------|


  E  E  E  E  E  E  Q
-------------------------|
-----0-----0-------------|
--0-----0-----------0----|
--------------2--4-------|


  Q    E  Q    Q    E
-----------------------|
----------0----0----0--|
--4----4--2----2-------|
-----------------------|


  E  E  E  E  E  E  Q
-------------------------|
-----0-----0-------------|
--2-----0-----------0----|
--------------2--4-------|


  Q.     H        E     E  Q    H        E
---------------------|----------------------|
---------------------|----------------------|
--5------4--------0--|--L--5----0--------L--|
---------------------|-----9----------------|


  Q.     H        E
---------------------|
--2------0--------0--|
--0------4--------4--|
---------------------|


  E  Q    Q    Q    E
-----------------------|
--L--0----0----0----0--|
--L--5----4----2----0--|
-----------------------|


  T E.  T E  Q    Q    E
--------------------------|
------------------0-------|
--2-4---L-4--2---------0--|
--------------------------|


  E  Q    E  E  E  E  E
-------------------------|
-----0----0--------------|
--L----------------0--0--|
-------------2--4--------|


  Q    E  Q    E  E  E
------------------------|
----------0----0-----5--|
--2----2--2----2--2-----|
------------------------|


  E  Q    E  E  E  E  E
-------------------------|
--L--0----0--------------|
-------------0--2--4--2--|
-------------------------|


  Q.     Q    Q    E
----------------------|
----------------------|
--5------4----4----0--|
----------------------|


  E  Q    Q    Q    E
-----------------------|
-----------------------|
--L--2----0----0----0--|
-----------------------|


  E  E  E  E  E  E  E  E
--------------------------|
--2--------2--0--------0--|
-----0--5--------0--4-----|
--------------------------|


  E  E  E  Q    Q.
-----------------------|
-----0-----0----0------|
--5-----0--------------|
-----------------------|


  Q    E  Q    Q    E
-----------------------|
-----------------------|
--4----4--2----0----0--|
-----------------------|


  E  E  E  Q    E  E  E
-------------------------|
-----------0----0--2--0--|
--------0--4-------------|
--2--4-------------------|


  E  E  E  Q    E  E  E
-------------------------|
----------------0--------|
--0--4--4--2-------0--0--|
-------------------------|


  E  E  E  E  E  E  E  E
--------------------------|
-----------0-----------0--|
--0--2--4-----------0-----|
--------------2--4--------|


  Q    E  Q    Q    E
-----------------------|
-------0-------0-------|
--3-------2---------3--|
-----------------------|


  E  Q    Q    Q    E
-----------------------|
-----0---------0-------|
--L-------2---------3--|
-----------------------|


  E  Q    Q    Q    E
-----------------------|
-----------------------|
--L--3----2----3----3--|
-----------------------|


  E  Q    Q    E  Q
-----------------------|
-----------------------|
--L--3----5----3--0----|
-----------------------|


  Q    E  Q    E  E  E
------------------------|
----------0----0--0--0--|
------------------------|
------------------------|


  E  Q    Q    E  Q
-----0-----------------|
----------0----0--0----|
-----------------------|
-----------------------|


  T Q.     S. E  Q    E
----------------------0--|
----0------L--0--0-------|
--5----------------------|
-------------------------|


  Q    Q    Q    E  E
-----------------------|
--------------------0--|
--5----3---------------|
-----------------------|


  Q    E  H        E
----------------------|
----------------------|
--3----3--5--------3--|
----------------------|


  E  Q    Q    Q    E
-----------------------|
---------------0----0--|
--L--3----5------------|
-----------------------|


  E  Q    Q    Q    E
-----------------------|
--L--0----0----0----0--|
-----------------------|
-----------------------|


  E  Q    Q    Q.
----------------------|
--L--0----0----0------|
----------------------|
----------------------|


  Q    E  H        E
----------------------|
----------0--------L--|
----------------------|
----------------------|


  Q    E  Q    E  Q
-----------------------|
----------0----0-------|
------------------3----|
-----------------------|


  H        E  Q    E
----------------------|
--------------0----1--|
--5--------L----------|
----------------------|


  E  Q    E  E  E  E  E
-------------------------|
--L--0----0-----0-----0--|
-------------3-----2-----|
-------------------------|


  T Q    S. Q    E  Q
-------------------------|
------------0----0-------|
--2-4----L----------5----|
-------------------------|


  E  E  E  E  E  E  Q
-------------------------|
-----0-----0-----0-------|
--4-----2-----0----------|
--------------------2----|


  E  E  E  E  E  E  E  E
--------------------------|
-----------------0-----0--|
-----0-----2--0-----2-----|
--4-----6-----------------|


  E  E  E  E  E  E  Q
-------------------------|
-----0-----0-----0-------|
--4-----0-----2-----4----|
-------------------------|


  Q.     H        E
---------------------|
---------------------|
--5------4--------0--|
---------------------|


  E  Q    Q    E  E  E
------------------------|
------------------------|
--L--2----0----------0--|
---------------4--4-----|


  Q.     H        E
---------------------|
---------0--------0--|
--5------4--------0--|
---------------------|


  E  Q    Q    E  E  E
------------------------|
--L--0----0----0-----0--|
--L--5----4-------2--0--|
------------------------|


  Q.     Q    E  E  E
-----------------------|
---------0-------------|
--4------2----2--2--0--|
-----------------------|


  E  E  E  E  E  E  Q
-------------------------|
-----0-----0-------------|
--L-----2-----------0----|
--------------2--4-------|


  Q.     Q    E  Q
----------------------|
---------0------------|
--5------4----2--0----|
----------------------|


  E  E  E  E  E  E  Q
-------------------------|
-------------------------|
--0--2--2--0--0--2--4----|
-------------------------|


  Q.     H        E
---------------------|
---------------------|
--5------4--------0--|
---------------------|


  E  Q    Q    E  E  E
------------------------|
------------------------|
--L--2----0----------0--|
---------------4--4-----|


  Q.     H        E
---------------------|
---------0--------0--|
--5------4--------0--|
---------------------|


  E  Q    Q    E  E  E
------------------------|
--L--0----0----0-----0--|
--L--5----4-------2--0--|
------------------------|


  Q.     Q    E  E  E
-----------------------|
---------0-------------|
--4------2----2--2--0--|
-----------------------|


  E  E  E  E  E  E  Q
-------------------------|
-----0-----0-------------|
--L-----2-----------0----|
--------------2--4-------|


  Q.     Q    E  Q
----------------------|
---------0------------|
--5------4----2--0----|
----------------------|


  E  E  E  E  E  E  Q
-------------------------|
-------------------------|
--0--2--2--0--0--2--4----|
-------------------------|


  Q.     H        E
---------------------|
---------------------|
--5------4--------0--|
---------------------|


  E  Q    Q    E  E  E
------------------------|
------------------------|
--L--2----0----------0--|
---------------4--4-----|


  Q.     Q    Q    E
----------------------|
---------0----0----0--|
--5------4----4----4--|
----------------------|


  E  Q    Q    E  E  E
------------------------|
--L--0----0-------------|
--L--5----4----0--2--0--|
------------------------|


  Q    E  E  Q    E  E
------------------------|
------------------------|
--4----2--2--0----2--0--|
------------------------|


  E  E  E  Q    E  Q
------------------------|
-----------0------------|
--------0--2----0--0----|
--2--4------------------|


   H        E  E  E  E
------------------------|
---------------------0--|
---0--------------0-----|
--12--------9--9--------|


  Q    E  E  E  E  E  E
-------------------------|
----------0-----0-----0--|
--0----0-----------0-----|
-------------5-----------|


  Q    E  E  E  E  Q
------------------------|
------------------------|
-------3--2--0-----0----|
----------------5-------|


  E  E  E  E  E  E  E  E
--------------------------|
--------------------------|
--3--2--0--5--3--2--0-----|
-----------------------5--|


  Q    E  Q.     E  E
-----------------------|
----------0------------|
--0----4---------------|
-----------------2--4--|


  H        E  Q    E
----------------------|
--------------0----0--|
--0--------L----------|
----------------------|


  Q    E  E  E  E  E  E
----------3--1--0--------|
-------------------5--3--|
-------------------------|
-------------------------|


  E  E  E  E  E  E  E  S S
-----0--5--3--0------------|
--5--------------5--0----0-|
-----------------------4---|
---------------------------|


  Q    E  E  E  Q.
-----------------------|
--5----0--0-----0------|
-------------4---------|
-----------------------|


  Q.     Q    E  E  E
-----------------------|
--5------5----5--5--5--|
-----------------------|
-----------------------|


  E  E  E  Q    E  E  E
-----------0----------0--|
--5--0----------0--------|
--------4----------4-----|
-------------------------|


  E  E  E  Q    E  E  E
--L--------0----------0--|
-----0----------0--------|
--------4----------4-----|
-------------------------|


  E  Q    E  E  Q    E
--L--0----0----------0--|
-------------0--0-------|
------------------------|
------------------------|


  E  E  E  Q    Q    E
--0-----0--0---------5--|
-----4----------0-------|
------------------------|
------------------------|


  E  Q    Q    Q    E
--L-------0---------0--|
-----0---------0-------|
-----------------------|
-----------------------|


  E  E  E  E  E  E  E  E
--L--------0-----------0--|
-----0--5--------0--5-----|
--------------0-----------|
--------------------------|


  E  E  E  E  E  E  E  E
-----------5--------------|
-----0--5--------------5--|
--0-----------0--2--4-----|
--------------------------|


  E  Q    Q    Q    E
-----0----5----0-------|
--L-----------------5--|
-----------------------|
-----------------------|


  E  E  E  Q    E  E  E
-----------0----------0--|
--5--0----------0--------|
--------4----------4-----|
-------------------------|


  E  E  E  Q    E  E  E
--L--------0----------0--|
-----0----------0--------|
--------4----------4-----|
-------------------------|


  E  Q    E  E  Q    E
--L--0----0----------0--|
-------------0--0-------|
------------------------|
------------------------|


  E  E  E  Q    Q    E
--0-----0--0---------5--|
-----4----------0-------|
------------------------|
------------------------|


  E  Q    Q    Q    E
--L-------0---------0--|
-----0---------0-------|
-----------------------|
-----------------------|


  E  E  E  E  E  E  E  E
--L--------0-----------0--|
-----0--5--------0--5-----|
--------------0-----------|
--------------------------|


  E  E  E  E  E  E  E  E
-----------5--------------|
-----0--5--------------5--|
--0-----------0--2--4-----|
--------------------------|


  E  Q    Q    Q    E
-----0----5----0-------||
--L-----------------5--||
-----------------------||
-----------------------||




Duration Legend
---------------
W - whole
H - half
Q - quarter
E - 8th
S - 16th
T - 32nd
X - 64th
. - note dotted
|-n-|  - n-tuplets


Tablature Legend
----------------
L - tied note
x - dead note
g - grace note
(n) - ghost note
> - accentuded note
NH - natural harmonic
AH - artificial harmonic
TH - tapped harmonic
SH - semi harmonic
PH - pitch harmonic
h - hammer on
p - pull off
b - bend
br - bendRelease
pb - preBend
pbr - preBendRelease
brb - bendReleaseBend

/ - tremolo bar dip

 - tremolo bar dive
-/n - tremolo bar Release up
/n - tremolo bar inverted dip
/n - tremolo bar return
-
 - tremolo bar Release down
S - shift slide
s - legato slide
/ -  slide into from below or out of upwards
 -  slide into from above or out of downwards
~ - vibrato
W - wide vibrato
tr - trill
TP - tremolo picking
T - tapping
S - slap
P - pop
< - fade in
^ - brush up
v - brush down




  
    Check it out...Join our new guitar forum & community. Click here!
  
  
    [Guitar forum|Member images|Member videos]
  




	

	       
LED ZEPPELIN - 'GOING TO CALIFORNIA MANDOLIN' Guitar tabs :: Complete and free!
 date: 	Fri, 10 Aug 2012
   id: 	510950
 href: 	http://www.guitartabsexplorer.com/led_zeppelin-tabs/going_to_california_mandolin-tab.php
Led Zeppelin The Complete Studio Recordings (1993)
Led Zeppelin The Complete Studio Recordings (1993)
 "Communications Breakdown" "Babe I'm Gonna Leave You" "Good Times Bad Times" "Whole Lotta Love" "Thank You" "Ramble On" "Heartbreaker" "What Is and What Should Never Be" "Immigrant Song" "Since I've Been Loving You" "Gallow's Pole" "Stairway to Heaven"
 type: 	image/jpeg
 date: 	2012-08-10
   id: 	41
score: 	9.12