> MIDI
> Chords

> Videos
Artist: Patty Loveless | Song: Thats The Kind Of Mood
 

  

 

 






 
Patty Loveless, Thats The Kind Of Mood Tabs

 
 Patty Loveless

Buy: Patty Loveless 
Loveless Patty 
Patty Loveless 
> Loveless Patty 
Tabs > Thats The Kind Of MoodArtist/Band: Loveless Patty Tabs
Song: Thats The Kind Of Mood Tab




THAT'S THE KIND OF MOOD I'M IN (R. Giles - T. Nicholes - G. Godard)
performed by Patty Loveless (Strong Heart, 2000)

INTRO (see TAB below)                              
|Esus2 |Esus2 |Esus2 |Esus2 |F# |E |F# |E |F# |


B                                               E
I tell you what we're in a rut, we're in a deep rut
B                                             E
So habitual, predicatable, I tell you what we oughta do
          B
We oughta drive away, fly away, find a way to get away
B                                  A        E
We need a break from the same old, same old nothin' new
      E           F#         B
Wanna go out on a limb, on a whim, yeah
                   F#
That's the kind of mood I'm in


E        B
Let's go somewhere, nowhere we've heard of

Hang the sign out, "Do not disturb us"
F#                             B
Get a wake up call about three p.m.
                   E        F#
That's the kind of mood I'm in
         B
A little shake up, take the chain and rattle it

Try to catch the wind and saddle it
F#                           E
Fall in love all over again, yeah
F#                          B
That's the kind of mood I'm in


|B |B E |B |B E |


B                                        E
I tell you this, I want a kiss, I want a long kiss
B                                                        E
The kind of deep down, move the ground thing you used to do to me
        B
I wanna dance a little, dream a little, baby just live a little
                            A             E
Make my heart rate elevate, bring it up a few degrees
       E                           B
Get me gone with the wind, now and then, yeah
                   F#
That's the kind of mood I'm in


E        B
Let's go somewhere, nowhere we've heard of

Hang the sign out, "Do not disturb us"
F#                             B
Get a wake up call about three p.m.
                   E        F#
That's the kind of mood I'm in
         B
A little shake up, take the chain and rattle it

Try to catch the wind and saddle it
F#                           E
Fall in love all over again, yeah
F#                          
That's the kind of mood I'm in


|E |F# |E |F# |E |F# |


G#m             F#
Any hemisphere, change of atmosphere
E                 F#
Get me outta here right now


G#        C#        F#   C#       G#
Let's go somewhere, nowhere we've heard of
C#
Hang the sign out, "Do not disturb us"
G#                             C#
Get a wake up call about three p.m.
                   F#        G#
That's the kind of mood I'm in
         C#
A little shake up, take the chain and rattle it

Try to catch the wind and saddle it
G#                           F#
Fall in love all over again, yeah
G#            F#
Over and over again
G#                          C#  F#  C#  F#  C#
That's the kind of mood I'm in



THAT'S THE KIND OF MOOD I'M IN (CHORD CHART)
INTRO (fade in)                               
|Esus2 |Esus2 |Esus2 |Esus2 |F# |E |F# |E |F# |

VERSE 1
|B |B / / E |B |B |E |E |B |B |B |B A |E |E / / B |E |B |F# |F# E |

CHORUS
|B |B |B |B |F# |F# |B |E F#|B |B |B |B |F# |F# |E |F# |

TAG
|B |B E |B |B E |


VERSE 2
|B |B / / E |B |B |E |E |B |B |B |B A |E |E / / B |E |B |F# |F# E |

CHORUS
|B |B |B |B |F# |F# |B |E F#|B |B |B |B |F# |F# |E |F# |

BRIDGE
|E |F# |E |F# |E |F# |G#m |F# |E |F# G# |

CHORUS
|C# |C# |C# |C# |G# |G# |C# |F# G# |C# |C# |C# |C# |G# |G# |F# |G# |

CODA
|F# |G# |C# |C# F# |C# |C# F# |C# ||



TAB

GUITAR 1
   _   _   _   _     _   _   _   _     _   _   _   _     _   _   _   _
  | | | | | | | |   | | | | | | | |   | | | | | | | |   | | | | | | | | 
|-----------------|-----------------|-----------------|-----------------|
|-----------------|-----------------|-----------------|-----------------|
|-----------------|-----------------|-----------------|-----------------|
|-------4---------|-------4---------|-------4---------|-------4---------|
|-------------2---|-------------2---|-------------2---|-------------2---|
|-0---------------|-0---------------|-0---------------|-0---------------|


 
  |   |   |   |     |   |   |   |     |   |   |   |     |   |   |   |   
|-----------------|-----------------|-----------------|-----------------|
|-----------------|-----------------|-----------------|-----------------|
|-----------------|-----------------|-----------------|-----------------|
|-----------------|-----------------|-----------------|-----------------|
|-7-----------6---|-4-----------6---|-7-----------6---|-4-----------6---|
|-----------------|-----------------|-----------------|-----------------|


GUITAR 2
   __    __    __    __    __    __    __    __    __    __    __    __
  |  |  |  |  |  |  |  |  |  |  |  |  |  |  |  |  |  |  |  |  |  |  |  |
|------------14---------|------------14---------|------------14---------|
|------12----------12---|------12----------12---|------12----------12---|
|---11----11----11----11|---11----11----11----11|---11----11----11----11|
|-----------------------|-----------------------|-----------------------|
|-----------------------|-----------------------|-----------------------|
|-----------------------|-----------------------|-----------------------|


   __    __    __    __    __    __    __    __    __    __    __    __
  |  |  |  |  |  |  |  |  |  |  |  |  |  |  |  |  |  |  |  |  |  |  |  |
|-----------------------|------------14---------|------------14---------|
|------12----14----12---|------12----------12---|------12----------12---|
|---11----11----11----11|---11----11----11----11|---11----11----11----11|
|-----------------------|-----------------------|-----------------------|
|-----------------------|-----------------------|-----------------------|
|-----------------------|-----------------------|-----------------------| 
 Please, support Patty Loveless.
Loveless Patty CDs | Buy 
Loveless Patty Posters






         

 
  
All 
tabs are the author's own work and represents their interpretation of the song, 
tablature for bass,
or lead guitar. You may only use this tab or chord file for private study, scholarship 
or research. 
Patty Loveless Thats The Kind Of Mood Tabs, Chords
 date: 	Sun, 09 Sep 2012
   id: 	534229
 href: 	http://www.allcountrytabs.com/tabs/loveless-patty/thats-the-kind-of-mood-4161.html