> MIDI
> Chords

> Videos
  Southern Girl Tab (ver 5) - Incubus

"Southern Girl"
"Incubus"
"39380751";

     
"Southern Girl"
"Southern Girl"
 Incubus - Southern Girl (ver 5) Guitar Tab
    Southern Girl Tab
    
       
    -------------------------------------------------------------------------------
    SOUTHERN GIRL - Incubus
-------------------------------------------------------------------------------
Tabbed by: Ashley Power
Email: ashleypower@hotmail.com

Tuning: EADGBe

*Please listen to the songs for strum patterns, really hard to convey here.
I'm not gonna tab every note, but this should be enough to get the hang of
it.

e|--5--5--3------------------------------------------------------------------|
B|--0--0--0------------------------------------------------------------------|
G|--5--5--4--1---------------------------------------------------------------|
D|--X--0--X----0-------------------------------------------------------------|
A|--X--X--3------------------------------------------------------------------|
E|--5--3-----0---1-1-0-------------------------------------------------------|

e|--5--5--3------------------------------------------------------------------|
B|--0--0--0------------------------------------------------------------------|
G|--5--5--4--0---------------------------------------------------------------|
D|--X--0--X----0-------------------------------------------------------------|
A|--X--X--3------3-----------------------------------------------------------|
E|--5--3-----1-----1p0-0-----------------------------------------------------|

e|--5--5--3--5--5--3--3------------------------------------------------------|
B|--6--5--3--6--5--3--1------------------------------------------------------|
G|--7--5--4--7--5--4--2--1--4------------------------------------------------|
D|--7--7--5--7--7--5--3--0--5------------------------------------------------|
A|--5--7--5--5--7--5-----2--5------------------------------------------------|
E|-----5--3-----5--3-----0--3------------------------------------------------|

*Let ring...............

e|------------------------------------------5---5----5-----5-8-0------5---8-0|
B|----------------------------------5---5-8---8----8----8---------5-8---5----|
G|--5h7-5--7-5h7----------------5-7---7--------------------------------------|
D|---------------5--5/2-2-2--2-----------------------------------------------|
A|---------------------------------------------------------------------------|
E|---------------------------------------------------------------------------|

e|---------------------------------------------------------------------------|
B|---------------------------------------------------------------------------|
G|--7-5\4-4h5-4------5---7-5-5-5-------7-7-----------------------------------|
D|--------------5/7----7-7-7-7-7-7\5-5-5-5-5-5\------------------------------|
A|-----------------------------------------7-7\------------------------------|
E|---------------------------------------------------------------------------|

************************************

| /   slide up
| \   slide down
| h   hammer-on
| p   pull-off
| ~   vibrato
| +   harmonic
| x   Mute note
| b   Bend
| pb  Pre-bend
| br  Bend release
| pbr Pre-bend release
| brb Bend release bend

************************************
    
        
    Tablature player for this song:
    
     
    
    
        
        
      
"Southern Girl"
"Southern Girl"
    cf_page_artist = "Incubus" "Southern Girl" "39380752"
      
     
     Incubus - Southern Girl TabSouthern Girl      People who played Incubus - Southern Girl Tab also played these songs by 
      Incubus:
      Anna Molly Chords, Drive Chords, I Miss You Chords, Drive Acoustic Chords, Wish You Were Here Chords, Dig Chords, Love Hurts Chords, The Warmth Chords  
  
  
  
   
   
     
    About the artist behind Southern Girl Tab:   
    
     Incubus is a Grammy-nominated alternative rock band based out of Calabasas, California. Formed by vocalist Brandon Boyd, lead guitarist Michael Einziger, and drummer Jose Antonio Pasillas II while in high school, the band grew to include bassist Alex Katunich (a.k.a. "Dirk Lance"), and Gavin Koppell (a.k.a. "DJ Lyfe"), both of whom were eventually replaced by bassist Ben Kenney (formerly of The Roots), and DJ Kilmore, respectively.They are known for their eclectic sound, balancing experimental and progressive qualities with pop appeal, earning praise for their ability to change and evolve their music with every subsequent release. Their lyrics touch on a number of different subjects, from their earliest works which touch on drugs and anti-conformity to the later albums where they often sing about politics and romance, although they primarily stress an optimistic view.Incubus has received both high critical acclaim and commercial success, reaching multi-platinum sales, as well as releasing several highly successful singles. The band started branching out creatively and earned mainstream recognition with the release of their 1999 album Make Yourself. By 2001, Incubus became hugely successful with the single "Drive" and their follow up album Morning View. Today they remain one of the world's most popular rock acts, with their latest studio album, Light Grenades, reaching Gold certification and reaching #1 in the U.S. Their music has also appeared in other media, such as the video games Halo 2 and Guitar Hero, and the films Stealth and Final Destination 2.Indexed at Wikipedia.      
Southern Girl Tab!
     
Southern Girl Tab, 


   Current rating: 0
   
   Rate: 
   1 
   2 
   3 
   4 
   5
  
  
  
    
    
  
  
 
 
     
      
     
     
 
 
  
  
   The chord pattern is shown here.   
  
  
  
 
 
 
 


  

 


 c4: "http://www.yourchords.com/283255/Incubus/Southern-Girl-ver-5-Tab/"
Southern Girl Tab - Incubus - Guitar Chords v5
 date: 	Sat, 26 May 2012
   id: 	446823
 href: 	http://www.yourchords.com/283255/Incubus/Southern-Girl-ver-5-Tab/
Guitar Tablature
Guitar Tablature
 Diatonic scale on C, guitar tablature
 type: 	image/png
 date: 	2016-02-03
   id: 	82
score: 	4.95